  0
SECTION
  2
HEADER
  9
$ACADVER
  1
AC1015
  9
$ACADMAINTVER
 70
     6
  9
$DWGCODEPAGE
  3
ANSI_1254
  9
$INSBASE
 10
0.0
 20
0.0
 30
0.0
  9
$EXTMIN
 10
0.0
 20
0.0
 30
0.0
  9
$EXTMAX
 10
279.4
 20
215.9
 30
0.0
  9
$LIMMIN
 10
0.0
 20
0.0
  9
$LIMMAX
 10
279.4
 20
215.9
  9
$ORTHOMODE
 70
     0
  9
$REGENMODE
 70
     1
  9
$FILLMODE
 70
     1
  9
$QTEXTMODE
 70
     0
  9
$MIRRTEXT
 70
     1
  9
$LTSCALE
 40
1.0
  9
$ATTMODE
 70
     1
  9
$TEXTSIZE
 40
3.5
  9
$TRACEWID
 40
1.0
  9
$TEXTSTYLE
  7
Standard
  9
$CLAYER
  8
0
  9
$CELTYPE
  6
ByLayer
  9
$CECOLOR
 62
   256
  9
$CELTSCALE
 40
1.0
  9
$DISPSILH
 70
     0
  9
$DIMSCALE
 40
1.0
  9
$DIMASZ
 40
3.5
  9
$DIMEXO
 40
1.0
  9
$DIMDLI
 40
3.75
  9
$DIMRND
 40
0.0
  9
$DIMDLE
 40
0.0
  9
$DIMEXE
 40
1.0
  9
$DIMTP
 40
0.0
  9
$DIMTM
 40
0.0
  9
$DIMTXT
 40
3.5
  9
$DIMCEN
 40
2.5
  9
$DIMTSZ
 40
0.0
  9
$DIMTOL
 70
     0
  9
$DIMLIM
 70
     0
  9
$DIMTIH
 70
     1
  9
$DIMTOH
 70
     1
  9
$DIMSE1
 70
     0
  9
$DIMSE2
 70
     0
  9
$DIMTAD
 70
     1
  9
$DIMZIN
 70
     0
  9
$DIMBLK
  1

  9
$DIMASO
 70
     1
  9
$DIMSHO
 70
     1
  9
$DIMPOST
  1

  9
$DIMAPOST
  1

  9
$DIMALT
 70
     0
  9
$DIMALTD
 70
     3
  9
$DIMALTF
 40
0.0393700787
  9
$DIMLFAC
 40
1.0
  9
$DIMTOFL
 70
     1
  9
$DIMTVP
 40
0.0
  9
$DIMTIX
 70
     0
  9
$DIMSOXD
 70
     0
  9
$DIMSAH
 70
     0
  9
$DIMBLK1
  1

  9
$DIMBLK2
  1

  9
$DIMSTYLE
  2
ISO-25
  9
$DIMCLRD
 70
     0
  9
$DIMCLRE
 70
     0
  9
$DIMCLRT
 70
     0
  9
$DIMTFAC
 40
1.0
  9
$DIMGAP
 40
1.524
  9
$DIMJUST
 70
     0
  9
$DIMSD1
 70
     0
  9
$DIMSD2
 70
     0
  9
$DIMTOLJ
 70
     0
  9
$DIMTZIN
 70
     0
  9
$DIMALTZ
 70
     0
  9
$DIMALTTZ
 70
     0
  9
$DIMUPT
 70
     0
  9
$DIMDEC
 70
     2
  9
$DIMTDEC
 70
     2
  9
$DIMALTU
 70
     2
  9
$DIMALTTD
 70
     3
  9
$DIMTXSTY
  7
Standard
  9
$DIMAUNIT
 70
     0
  9
$DIMADEC
 70
     2
  9
$DIMALTRND
 40
0.0
  9
$DIMAZIN
 70
     0
  9
$DIMDSEP
 70
    44
  9
$DIMATFIT
 70
     3
  9
$DIMFRAC
 70
     0
  9
$DIMLDRBLK
  1

  9
$DIMLUNIT
 70
     2
  9
$DIMLWD
 70
    -2
  9
$DIMLWE
 70
    -2
  9
$DIMTMOVE
 70
     0
  9
$LUNITS
 70
     2
  9
$LUPREC
 70
     2
  9
$SKETCHINC
 40
1.0
  9
$FILLETRAD
 40
10.0
  9
$AUNITS
 70
     0
  9
$AUPREC
 70
     2
  9
$MENU
  1
.
  9
$ELEVATION
 40
0.0
  9
$PELEVATION
 40
0.0
  9
$THICKNESS
 40
0.0
  9
$LIMCHECK
 70
     0
  9
$CHAMFERA
 40
0.0
  9
$CHAMFERB
 40
0.0
  9
$CHAMFERC
 40
0.0
  9
$CHAMFERD
 40
0.0
  9
$SKPOLY
 70
     0
  9
$TDCREATE
 40
2458985.682570625
  9
$TDUCREATE
 40
2458985.557570625
  9
$TDUPDATE
 40
2458985.682570984
  9
$TDUUPDATE
 40
2458985.557570984
  9
$TDINDWG
 40
0.0000000116
  9
$TDUSRTIMER
 40
0.0000000116
  9
$USRTIMER
 70
     1
  9
$ANGBASE
 50
0.0
  9
$ANGDIR
 70
     0
  9
$PDMODE
 70
     0
  9
$PDSIZE
 40
-1.0
  9
$PLINEWID
 40
0.0
  9
$SPLFRAME
 70
     0
  9
$SPLINETYPE
 70
     6
  9
$SPLINESEGS
 70
     8
  9
$HANDSEED
  5
CB
  9
$SURFTAB1
 70
     6
  9
$SURFTAB2
 70
     6
  9
$SURFTYPE
 70
     6
  9
$SURFU
 70
     6
  9
$SURFV
 70
     6
  9
$UCSBASE
  2

  9
$UCSNAME
  2

  9
$UCSORG
 10
0.0
 20
0.0
 30
0.0
  9
$UCSXDIR
 10
1.0
 20
0.0
 30
0.0
  9
$UCSYDIR
 10
0.0
 20
1.0
 30
0.0
  9
$UCSORTHOREF
  2

  9
$UCSORTHOVIEW
 70
     0
  9
$UCSORGTOP
 10
0.0
 20
0.0
 30
0.0
  9
$UCSORGBOTTOM
 10
0.0
 20
0.0
 30
0.0
  9
$UCSORGLEFT
 10
0.0
 20
0.0
 30
0.0
  9
$UCSORGRIGHT
 10
0.0
 20
0.0
 30
0.0
  9
$UCSORGFRONT
 10
0.0
 20
0.0
 30
0.0
  9
$UCSORGBACK
 10
0.0
 20
0.0
 30
0.0
  9
$PUCSBASE
  2

  9
$PUCSNAME
  2

  9
$PUCSORG
 10
0.0
 20
0.0
 30
0.0
  9
$PUCSXDIR
 10
1.0
 20
0.0
 30
0.0
  9
$PUCSYDIR
 10
0.0
 20
1.0
 30
0.0
  9
$PUCSORTHOREF
  2

  9
$PUCSORTHOVIEW
 70
     0
  9
$PUCSORGTOP
 10
0.0
 20
0.0
 30
0.0
  9
$PUCSORGBOTTOM
 10
0.0
 20
0.0
 30
0.0
  9
$PUCSORGLEFT
 10
0.0
 20
0.0
 30
0.0
  9
$PUCSORGRIGHT
 10
0.0
 20
0.0
 30
0.0
  9
$PUCSORGFRONT
 10
0.0
 20
0.0
 30
0.0
  9
$PUCSORGBACK
 10
0.0
 20
0.0
 30
0.0
  9
$USERI1
 70
     0
  9
$USERI2
 70
     0
  9
$USERI3
 70
     0
  9
$USERI4
 70
     0
  9
$USERI5
 70
     0
  9
$USERR1
 40
0.0
  9
$USERR2
 40
0.0
  9
$USERR3
 40
0.0
  9
$USERR4
 40
0.0
  9
$USERR5
 40
0.0
  9
$WORLDVIEW
 70
     1
  9
$SHADEDGE
 70
     3
  9
$SHADEDIF
 70
    70
  9
$TILEMODE
 70
     1
  9
$MAXACTVP
 70
    64
  9
$PINSBASE
 10
0.0
 20
0.0
 30
0.0
  9
$PLIMCHECK
 70
     0
  9
$PEXTMIN
 10
1.0000000000E+20
 20
1.0000000000E+20
 30
1.0000000000E+20
  9
$PEXTMAX
 10
-1.0000000000E+20
 20
-1.0000000000E+20
 30
-1.0000000000E+20
  9
$PLIMMIN
 10
0.0
 20
0.0
  9
$PLIMMAX
 10
420.0
 20
297.0
  9
$UNITMODE
 70
     0
  9
$VISRETAIN
 70
     1
  9
$PLINEGEN
 70
     0
  9
$PSLTSCALE
 70
     1
  9
$TREEDEPTH
 70
  3020
  9
$CMLSTYLE
  2
Standard
  9
$CMLJUST
 70
     0
  9
$CMLSCALE
 40
20.0
  9
$PROXYGRAPHICS
 70
     1
  9
$MEASUREMENT
 70
     1
  9
$CELWEIGHT
370
    -1
  9
$ENDCAPS
280
     0
  9
$JOINSTYLE
280
     0
  9
$LWDISPLAY
290
     1
  9
$INSUNITS
 70
     4
  9
$HYPERLINKBASE
  1

  9
$STYLESHEET
  1

  9
$XEDIT
290
     1
  9
$CEPSNTYPE
380
     0
  9
$PSTYLEMODE
290
     1
  9
$FINGERPRINTGUID
  2
{93c8d7bd-ed6a-4773-b31c-040d7505aced}
  9
$VERSIONGUID
  2
{FAEB1C32-E019-11D5-929B-00C0DF256EC4}
  9
$EXTNAMES
290
     1
  9
$PSVPSCALE
 40
0.0
  9
$OLESTARTUP
290
     0
  0
ENDSEC
  0
SECTION
  2
CLASSES
  0
CLASS
  1
ACDBDICTIONARYWDFLT
  2
AcDbDictionaryWithDefault
  3
ObjectDBX Classes
 90
        0
280
     0
281
     0
  0
CLASS
  1
VISUALSTYLE
  2
AcDbVisualStyle
  3
ObjectDBX Classes
 90
     4095
280
     0
281
     0
  0
CLASS
  1
MATERIAL
  2
AcDbMaterial
  3
ObjectDBX Classes
 90
     1153
280
     0
281
     0
  0
CLASS
  1
SCALE
  2
AcDbScale
  3
ObjectDBX Classes
 90
     1153
280
     0
281
     0
  0
CLASS
  1
TABLESTYLE
  2
AcDbTableStyle
  3
ObjectDBX Classes
 90
     4095
280
     0
281
     0
  0
CLASS
  1
MLEADERSTYLE
  2
AcDbMLeaderStyle
  3
ACDB_MLEADERSTYLE_CLASS
 90
     4095
280
     0
281
     0
  0
CLASS
  1
SUN
  2
AcDbSun
  3
SCENEOE
 90
     1153
280
     0
281
     0
  0
CLASS
  1
ACDBPLACEHOLDER
  2
AcDbPlaceHolder
  3
ObjectDBX Classes
 90
        0
280
     0
281
     0
  0
CLASS
  1
LAYOUT
  2
AcDbLayout
  3
ObjectDBX Classes
 90
        0
280
     0
281
     0
  0
ENDSEC
  0
SECTION
  2
TABLES
  0
TABLE
  2
VPORT
  5
8
330
0
100
AcDbSymbolTable
 70
     1
  0
VPORT
  5
29
330
8
100
AcDbSymbolTableRecord
100
AcDbViewportTableRecord
  2
*Active
 70
     0
 10
0.0
 20
0.0
 11
1.0
 21
1.0
 12
139.7
 22
107.95
 13
0.0
 23
0.0
 14
10.0
 24
10.0
 15
10.0
 25
10.0
 16
0.0
 26
0.0
 36
1.0
 17
0.0
 27
0.0
 37
0.0
 40
215.9
 41
1.2941176471
 42
50.0
 43
0.0
 44
0.0
 50
0.0
 51
0.0
 71
     0
 72
  2000
 73
     1
 74
     3
 75
     0
 76
     0
 77
     0
 78
     0
281
     0
 65
     1
110
0.0
120
0.0
130
0.0
111
1.0
121
0.0
131
0.0
112
0.0
122
1.0
132
0.0
 79
     0
146
0.0
  0
ENDTAB
  0
TABLE
  2
LTYPE
  5
5
330
0
100
AcDbSymbolTable
 70
     6
  0
LTYPE
  5
14
330
5
100
AcDbSymbolTableRecord
100
AcDbLinetypeTableRecord
  2
ByBlock
 70
     0
  3

 72
    65
 73
     0
 40
0.0
  0
LTYPE
  5
15
330
5
100
AcDbSymbolTableRecord
100
AcDbLinetypeTableRecord
  2
ByLayer
 70
     0
  3

 72
    65
 73
     0
 40
0.0
  0
LTYPE
  5
16
330
5
100
AcDbSymbolTableRecord
100
AcDbLinetypeTableRecord
  2
Continuous
 70
     0
  3
Solid line
 72
    65
 73
     0
 40
0.0
  0
LTYPE
  5
6E
330
5
100
AcDbSymbolTableRecord
100
AcDbLinetypeTableRecord
  2
HIDDEN
 70
     0
  3
Hidden __ __ __ __ __ __ __ __ __ __ __ __ __ __
 72
    65
 73
     2
 40
1.905
 49
1.27
 74
     0
 49
-0.635
 74
     0
  0
LTYPE
  5
6F
330
5
100
AcDbSymbolTableRecord
100
AcDbLinetypeTableRecord
  2
PHANTOM
 70
     0
  3
Phantom ______  __  __  ______  __  __  ______
 72
    65
 73
     6
 40
12.7
 49
6.35
 74
     0
 49
-1.27
 74
     0
 49
1.27
 74
     0
 49
-1.27
 74
     0
 49
1.27
 74
     0
 49
-1.27
 74
     0
  0
LTYPE
  5
70
330
5
100
AcDbSymbolTableRecord
100
AcDbLinetypeTableRecord
  2
CENTER
 70
     0
  3
Center ____ _ ____ _ ____ _ ____ _ ____ _ ____
 72
    65
 73
     4
 40
10.16
 49
6.35
 74
     0
 49
-1.27
 74
     0
 49
1.27
 74
     0
 49
-1.27
 74
     0
  0
LTYPE
  5
71
330
5
100
AcDbSymbolTableRecord
100
AcDbLinetypeTableRecord
  2
CENTERX2
 70
     0
  3
Center (2x) ________  __  ________  __  _____
 72
    65
 73
     4
 40
20.32
 49
12.7
 74
     0
 49
-2.54
 74
     0
 49
2.54
 74
     0
 49
-2.54
 74
     0
  0
LTYPE
  5
72
330
5
100
AcDbSymbolTableRecord
100
AcDbLinetypeTableRecord
  2
DOT2
 70
     0
  3
Dot (.5x) ........................................
 72
    65
 73
     2
 40
0.635
 49
0.0
 74
     0
 49
-0.635
 74
     0
  0
ENDTAB
  0
TABLE
  2
LAYER
  5
2
330
0
100
AcDbSymbolTable
 70
    17
  0
LAYER
  5
10
330
2
100
AcDbSymbolTableRecord
100
AcDbLayerTableRecord
  2
0
 70
     0
 62
     7
  6
Continuous
370
    -3
390
F
  0
LAYER
  5
73
330
2
100
AcDbSymbolTableRecord
100
AcDbLayerTableRecord
  2
FORMAT
 70
     0
 62
     7
  6
Continuous
370
    -3
390
F
  0
LAYER
  5
74
330
2
100
AcDbSymbolTableRecord
100
AcDbLayerTableRecord
  2
YARDIMCI_GEOMETRI
 70
     0
 62
    -6
  6
Continuous
290
     0
370
    -3
390
F
  0
LAYER
  5
75
330
2
100
AcDbSymbolTableRecord
100
AcDbLayerTableRecord
  2
SAYFA_CERCEVESI
 70
     0
 62
     7
  6
Continuous
370
    25
390
F
  0
LAYER
  5
76
330
2
100
AcDbSymbolTableRecord
100
AcDbLayerTableRecord
  2
ANTET
 70
     0
 62
     7
  6
Continuous
370
    -3
390
F
  0
LAYER
  5
77
330
2
100
AcDbSymbolTableRecord
100
AcDbLayerTableRecord
  2
OLCU
 70
     0
 62
   150
  6
Continuous
370
    -3
390
F
  0
LAYER
  5
78
330
2
100
AcDbSymbolTableRecord
100
AcDbLayerTableRecord
  2
METIN
 70
     0
 62
    96
  6
Continuous
370
    -3
390
F
  0
LAYER
  5
79
330
2
100
AcDbSymbolTableRecord
100
AcDbLayerTableRecord
  2
BALON
 70
     0
 62
     5
  6
Continuous
370
    -3
390
F
  0
LAYER
  5
7A
330
2
100
AcDbSymbolTableRecord
100
AcDbLayerTableRecord
  2
VURGU
 70
     0
 62
     7
  6
Continuous
370
    -3
390
F
  0
LAYER
  5
7B
330
2
100
AcDbSymbolTableRecord
100
AcDbLayerTableRecord
  2
SILIK
 70
     0
 62
     7
  6
Continuous
370
    -3
390
F
  0
LAYER
  5
7C
330
2
100
AcDbSymbolTableRecord
100
AcDbLayerTableRecord
  2
MODEL
 70
     0
 62
     7
  6
Continuous
370
    -3
390
F
  0
LAYER
  5
7D
330
2
100
AcDbSymbolTableRecord
100
AcDbLayerTableRecord
  2
DETAYLANDıRMA
 70
     0
 62
   190
  6
Continuous
370
    -3
390
F
  0
LAYER
  5
7E
330
2
100
AcDbSymbolTableRecord
100
AcDbLayerTableRecord
  2
TOLERANS
 70
     0
 62
   230
  6
Continuous
370
    -3
390
F
  0
LAYER
  5
7F
330
2
100
AcDbSymbolTableRecord
100
AcDbLayerTableRecord
  2
MERKEZ_CIZGILERI
 70
     0
 62
    30
  6
Continuous
370
    -3
390
F
  0
LAYER
  5
80
330
2
100
AcDbSymbolTableRecord
100
AcDbLayerTableRecord
  2
KESIT-DETAY_CIZGILERI
 70
     0
 62
     7
  6
Continuous
370
    -3
390
F
  0
LAYER
  5
81
330
2
100
AcDbSymbolTableRecord
100
AcDbLayerTableRecord
  2
\U+041E\U+0421\U+0415\U+0412\U+042B\U+0415
 70
     0
 62
     7
  6
Continuous
370
    -3
390
F
  0
LAYER
  5
82
330
2
100
AcDbSymbolTableRecord
100
AcDbLayerTableRecord
  2
\U+0412\U+041E\U+0414\U+042F\U+041D\U+042B\U+0415_\U+0417\U+041D\U+0410\U+041A\U+0418
 70
     0
 62
    11
  6
Continuous
370
    -3
390
F
  0
ENDTAB
  0
TABLE
  2
STYLE
  5
3
330
0
100
AcDbSymbolTable
 70
     1
  0
STYLE
  5
11
330
3
100
AcDbSymbolTableRecord
100
AcDbTextStyleTableRecord
  2
Standard
 70
     0
 40
0.0
 41
1.0
 50
0.0
 71
     0
 42
3.5
  3
txt
  4

  0
ENDTAB
  0
TABLE
  2
VIEW
  5
6
330
0
100
AcDbSymbolTable
 70
     0
  0
ENDTAB
  0
TABLE
  2
UCS
  5
7
330
0
100
AcDbSymbolTable
 70
     0
  0
ENDTAB
  0
TABLE
  2
APPID
  5
9
330
0
100
AcDbSymbolTable
 70
     1
  0
APPID
  5
12
330
9
100
AcDbSymbolTableRecord
100
AcDbRegAppTableRecord
  2
ACAD
 70
     0
  0
ENDTAB
  0
TABLE
  2
DIMSTYLE
  5
A
330
0
100
AcDbSymbolTable
 70
     1
100
AcDbDimStyleTable
  0
DIMSTYLE
105
27
330
A
100
AcDbSymbolTableRecord
100
AcDbDimStyleTableRecord
  2
ISO-25
 70
     0
 41
2.5
 42
0.625
 43
3.75
 44
1.25
 73
     0
 74
     0
 77
     1
 78
     8
140
2.5
141
2.5
143
0.0393700787
147
0.625
171
     3
172
     1
178
     0
271
     2
272
     2
274
     3
278
    44
283
     0
284
     8
340
11
  0
ENDTAB
  0
TABLE
  2
BLOCK_RECORD
  5
1
330
0
100
AcDbSymbolTable
 70
     3
  0
BLOCK_RECORD
  5
1F
330
1
100
AcDbSymbolTableRecord
100
AcDbBlockTableRecord
  2
*Model_Space
340
22
  0
BLOCK_RECORD
  5
1B
330
1
100
AcDbSymbolTableRecord
100
AcDbBlockTableRecord
  2
*Paper_Space
340
1E
  0
BLOCK_RECORD
  5
23
330
1
100
AcDbSymbolTableRecord
100
AcDbBlockTableRecord
  2
*Paper_Space0
340
26
  0
BLOCK_RECORD
  5
88
330
1
100
AcDbSymbolTableRecord
100
AcDbBlockTableRecord
  2
SW_CENTERMARKSYMBOL_0
340
0
102
{BLKREFS
331
93
102
}
  0
BLOCK_RECORD
  5
B2
330
1
100
AcDbSymbolTableRecord
100
AcDbBlockTableRecord
  2
SW_CENTERMARKSYMBOL_1
340
0
102
{BLKREFS
331
BD
102
}
  0
ENDTAB
  0
ENDSEC
  0
SECTION
  2
BLOCKS
  0
BLOCK
  5
20
330
1F
100
AcDbEntity
  8
0
100
AcDbBlockBegin
  2
*Model_Space
 70
     0
 10
0.0
 20
0.0
 30
0.0
  3
*Model_Space
  1

  0
ENDBLK
  5
21
330
1F
100
AcDbEntity
  8
0
100
AcDbBlockEnd
  0
BLOCK
  5
1C
330
1B
100
AcDbEntity
 67
     1
  8
0
100
AcDbBlockBegin
  2
*Paper_Space
 70
     0
 10
0.0
 20
0.0
 30
0.0
  3
*Paper_Space
  1

  0
ENDBLK
  5
1D
330
1B
100
AcDbEntity
 67
     1
  8
0
100
AcDbBlockEnd
  0
BLOCK
  5
24
330
23
100
AcDbEntity
  8
0
100
AcDbBlockBegin
  2
*Paper_Space0
 70
     0
 10
0.0
 20
0.0
 30
0.0
  3
*Paper_Space0
  1

  0
ENDBLK
  5
25
330
23
100
AcDbEntity
  8
0
100
AcDbBlockEnd
  0
BLOCK
  5
89
330
88
100
AcDbEntity
  8
0
100
AcDbBlockBegin
  2
SW_CENTERMARKSYMBOL_0
 70
     0
 10
0.0
 20
0.0
 30
0.0
  3
SW_CENTERMARKSYMBOL_0
  1

  0
LINE
  5
8B
330
88
100
AcDbEntity
  8
FORMAT
 62
     0
100
AcDbLine
 10
0.0
 20
0.0
 30
0.0
 11
0.0
 21
2.5
 31
0.0
  0
LINE
  5
8C
330
88
100
AcDbEntity
  8
FORMAT
 62
     0
100
AcDbLine
 10
0.0
 20
0.0
 30
0.0
 11
-2.5
 21
0.0
 31
0.0
  0
LINE
  5
8D
330
88
100
AcDbEntity
  8
FORMAT
 62
     0
100
AcDbLine
 10
0.0
 20
0.0
 30
0.0
 11
0.0
 21
-2.5
 31
0.0
  0
LINE
  5
8E
330
88
100
AcDbEntity
  8
FORMAT
 62
     0
100
AcDbLine
 10
0.0
 20
0.0
 30
0.0
 11
2.5
 21
0.0
 31
0.0
  0
LINE
  5
8F
330
88
100
AcDbEntity
  8
FORMAT
 62
     0
100
AcDbLine
 10
0.0
 20
5.0
 30
0.0
 11
0.0
 21
72.5
 31
0.0
  0
LINE
  5
90
330
88
100
AcDbEntity
  8
FORMAT
 62
     0
100
AcDbLine
 10
-5.0
 20
0.0
 30
0.0
 11
-72.5
 21
0.0
 31
0.0
  0
LINE
  5
91
330
88
100
AcDbEntity
  8
FORMAT
 62
     0
100
AcDbLine
 10
0.0
 20
-5.0
 30
0.0
 11
0.0
 21
-72.5
 31
0.0
  0
LINE
  5
92
330
88
100
AcDbEntity
  8
FORMAT
 62
     0
100
AcDbLine
 10
5.0
 20
0.0
 30
0.0
 11
72.5
 21
0.0
 31
0.0
  0
ENDBLK
  5
8A
330
88
100
AcDbEntity
  8
0
100
AcDbBlockEnd
  0
BLOCK
  5
B3
330
B2
100
AcDbEntity
  8
0
100
AcDbBlockBegin
  2
SW_CENTERMARKSYMBOL_1
 70
     0
 10
0.0
 20
0.0
 30
0.0
  3
SW_CENTERMARKSYMBOL_1
  1

  0
LINE
  5
B5
330
B2
100
AcDbEntity
  8
FORMAT
 62
     0
100
AcDbLine
 10
0.0
 20
0.0
 30
0.0
 11
0.0
 21
2.5
 31
0.0
  0
LINE
  5
B6
330
B2
100
AcDbEntity
  8
FORMAT
 62
     0
100
AcDbLine
 10
0.0
 20
0.0
 30
0.0
 11
-2.5
 21
0.0
 31
0.0
  0
LINE
  5
B7
330
B2
100
AcDbEntity
  8
FORMAT
 62
     0
100
AcDbLine
 10
0.0
 20
0.0
 30
0.0
 11
0.0
 21
-2.5
 31
0.0
  0
LINE
  5
B8
330
B2
100
AcDbEntity
  8
FORMAT
 62
     0
100
AcDbLine
 10
0.0
 20
0.0
 30
0.0
 11
2.5
 21
0.0
 31
0.0
  0
LINE
  5
B9
330
B2
100
AcDbEntity
  8
FORMAT
 62
     0
100
AcDbLine
 10
0.0
 20
5.0
 30
0.0
 11
0.0
 21
47.5
 31
0.0
  0
LINE
  5
BA
330
B2
100
AcDbEntity
  8
FORMAT
 62
     0
100
AcDbLine
 10
-5.0
 20
0.0
 30
0.0
 11
-47.5
 21
0.0
 31
0.0
  0
LINE
  5
BB
330
B2
100
AcDbEntity
  8
FORMAT
 62
     0
100
AcDbLine
 10
0.0
 20
-5.0
 30
0.0
 11
0.0
 21
-47.5
 31
0.0
  0
LINE
  5
BC
330
B2
100
AcDbEntity
  8
FORMAT
 62
     0
100
AcDbLine
 10
5.0
 20
0.0
 30
0.0
 11
47.5
 21
0.0
 31
0.0
  0
ENDBLK
  5
B4
330
B2
100
AcDbEntity
  8
0
100
AcDbBlockEnd
  0
ENDSEC
  0
SECTION
  2
ENTITIES
  0
LINE
  5
83
330
1F
100
AcDbEntity
  8
0
  6
Continuous
 62
     7
370
    25
100
AcDbLine
 10
141.7143388741
 20
67.254454225
 30
0.0
 11
263.0202146984
 21
67.254454225
 31
0.0
  0
LINE
  5
84
330
1F
100
AcDbEntity
  8
0
  6
Continuous
 62
     7
370
    25
100
AcDbLine
 10
263.0202146984
 20
157.254454225
 30
0.0
 11
141.6578503775
 21
157.254454225
 31
0.0
  0
CIRCLE
  5
85
330
1F
100
AcDbEntity
  8
0
  6
Continuous
 62
     7
370
    25
100
AcDbCircle
 10
88.0202146984
 20
112.254454225
 30
0.0
 40
57.29999999999998
  0
CIRCLE
  5
86
330
1F
100
AcDbEntity
  8
0
  6
Continuous
 62
     7
370
    25
100
AcDbCircle
 10
88.0202146984
 20
112.254454225
 30
0.0
 40
70.0
  0
LINE
  5
87
330
1F
100
AcDbEntity
  8
0
  6
Continuous
 62
     7
370
    25
100
AcDbLine
 10
263.0202146984
 20
157.254454225
 30
0.0
 11
263.0202146984
 21
67.254454225
 31
0.0
  0
INSERT
  5
93
330
1F
100
AcDbEntity
  8
FORMAT
100
AcDbBlockReference
  2
SW_CENTERMARKSYMBOL_0
 10
88.0202146984
 20
112.254454225
 30
0.0
  0
LINE
  5
94
330
1F
100
AcDbEntity
  8
0
  6
Continuous
 62
     7
370
    25
100
AcDbLine
 10
18.0202146984
 20
-24.1141621193
 30
0.0
 11
18.0202146984
 21
-404.1141621193
 31
0.0
  0
LINE
  5
95
330
1F
100
AcDbEntity
  8
0
  6
Continuous
 62
     7
370
    25
100
AcDbLine
 10
158.0202146984
 20
-169.1641197573
 30
0.0
 11
158.0202146984
 21
-24.1141621193
 31
0.0
  0
LINE
  5
96
330
1F
100
AcDbEntity
  8
0
  6
Continuous
 62
     7
370
    25
100
AcDbLine
 10
158.0202146984
 20
-404.1141621193
 30
0.0
 11
158.0202146984
 21
-259.1141621193
 31
0.0
  0
LINE
  5
97
330
1F
100
AcDbEntity
  8
0
  6
Continuous
 62
     7
370
    25
100
AcDbLine
 10
158.0202146984
 20
-259.1141621193
 30
0.0
 11
263.0202146984
 21
-259.1141621193
 31
0.0
  0
LINE
  5
98
330
1F
100
AcDbEntity
  8
0
  6
Continuous
 62
     7
370
    25
100
AcDbLine
 10
263.0202146984
 20
-169.1141621193
 30
0.0
 11
157.9882331235
 21
-169.1141621193
 31
0.0
  0
SPLINE
  5
99
330
1F
100
AcDbEntity
  8
0
  6
Continuous
 62
     7
370
    25
100
AcDbSpline
210
0.0
220
0.0
230
1.0
 70
     8
 71
     3
 72
    38
 73
    34
 74
     0
 42
0.000000001
 43
0.00000001
 40
0.0
 40
0.0
 40
0.0
 40
0.0
 40
0.0052205293759463
 40
0.0524505683299844
 40
0.09583688532969
 40
0.1403266609007761
 40
0.1869784098020678
 40
0.2346562869159166
 40
0.2884135679575967
 40
0.3159887094009414
 40
0.3435617260257131
 40
0.3901800785284833
 40
0.4141226572720397
 40
0.438061305580129
 40
0.4614377557771696
 40
0.484811606121715
 40
0.5091275935700184
 40
0.5334444009347877
 40
0.5734971871451192
 40
0.6145462156785265
 40
0.6414719246633639
 40
0.6684017432845483
 40
0.6961004870977919
 40
0.7238007590176703
 40
0.7783602659241337
 40
0.8063969309841017
 40
0.8344308665076283
 40
0.8624986178202624
 40
0.8905625425244165
 40
0.9197584805754173
 40
0.9489503345123015
 40
0.9743537311962137
 40
1.0
 40
1.0
 40
1.0
 40
1.0
 10
157.9881714148737
 20
-169.1641197572661
 30
0.0
 10
157.9985730332699
 20
-169.1479019949877
 30
0.0
 10
158.1030779133586
 20
-168.9849624179274
 30
0.0
 10
157.686042973793
 20
-169.633021553366
 30
0.0
 10
156.7486875194373
 20
-171.1107261804037
 30
0.0
 10
155.2677012392138
 20
-173.5077516950931
 30
0.0
 10
153.350802983234
 20
-176.7499651656129
 30
0.0
 10
151.0046662085238
 20
-180.988370672355
 30
0.0
 10
148.8347014035094
 20
-185.3262665229409
 30
0.0
 10
147.0469408948544
 20
-189.3769166444786
 30
0.0
 10
145.4502347607968
 20
-193.3992480851987
 30
0.0
 10
144.0675684123033
 20
-197.5790698247187
 30
0.0
 10
142.9971481809217
 20
-201.8329948508691
 30
0.0
 10
142.3504400066079
 20
-205.1450117084997
 30
0.0
 10
141.8973656824401
 20
-208.5119207391674
 30
0.0
 10
141.6447615707726
 20
-211.9499653597942
 30
0.0
 10
141.6181977109101
 20
-215.4568106705784
 30
0.0
 10
141.8664629251162
 20
-219.757783298542
 30
0.0
 10
142.5948537065643
 20
-224.7779140482811
 30
0.0
 10
143.7969317220299
 20
-229.6764968270685
 30
0.0
 10
145.0904249913183
 20
-233.7445150916471
 30
0.0
 10
146.3210857799702
 20
-237.0699544173494
 30
0.0
 10
147.6441852952648
 20
-240.2411392352523
 30
0.0
 10
149.468009577373
 20
-244.2118637737083
 30
0.0
 10
151.3126320818957
 20
-247.790408215873
 30
0.0
 10
153.0411834956212
 20
-250.9093381341941
 30
0.0
 10
154.2644616526641
 20
-253.0261406206828
 30
0.0
 10
155.3628840646987
 20
-254.8653543820307
 30
0.0
 10
156.3216936029361
 20
-256.4282898039521
 30
0.0
 10
157.1018260736145
 20
-257.6747989747676
 30
0.0
 10
157.6416065883302
 20
-258.5237623273621
 30
0.0
 10
157.9624443605866
 20
-259.0244096405416
 30
0.0
 10
158.0008969389398
 20
-259.0841498870253
 30
0.0
 10
158.0202146984436
 20
-259.1141621193306
 30
0.0
  0
LINE
  5
9A
330
1F
100
AcDbEntity
  8
0
  6
Continuous
 62
     7
370
    25
100
AcDbLine
 10
158.0202146984
 20
-404.1141621193
 30
0.0
 11
18.0202146984
 21
-404.1141621193
 31
0.0
  0
LINE
  5
9B
330
1F
100
AcDbEntity
  8
0
  6
Continuous
 62
     7
370
    25
100
AcDbLine
 10
158.0202146984
 20
-24.1141621193
 30
0.0
 11
18.0202146984
 21
-24.1141621193
 31
0.0
  0
LINE
  5
9C
330
1F
100
AcDbEntity
  8
0
  6
Continuous
 62
     7
370
    25
100
AcDbLine
 10
263.0202146984
 20
-169.1141621193
 30
0.0
 11
263.0202146984
 21
-259.1141621193
 31
0.0
  0
LINE
  5
9D
330
1F
100
AcDbEntity
  8
0
  6
Continuous
 62
     7
370
    25
100
AcDbLine
 10
158.0202146984
 20
466.3225192027
 30
0.0
 11
158.0202146984
 21
611.3225192027
 31
0.0
  0
LINE
  5
9E
330
1F
100
AcDbEntity
  8
0
  6
Continuous
 62
     7
370
    25
100
AcDbLine
 10
158.0202146984
 20
231.3225192027
 30
0.0
 11
158.0202146984
 21
376.3724768407
 31
0.0
  0
LINE
  5
9F
330
1F
100
AcDbEntity
  8
0
  6
Continuous
 62
     7
370
    25
100
AcDbLine
 10
18.0202146984
 20
611.3225192027
 30
0.0
 11
18.0202146984
 21
231.3225192027
 31
0.0
  0
LINE
  5
A0
330
1F
100
AcDbEntity
  8
0
  6
Continuous
 62
     7
370
    25
100
AcDbLine
 10
157.9882331235
 20
376.3225192027
 30
0.0
 11
263.0202146984
 21
376.3225192027
 31
0.0
  0
LINE
  5
A1
330
1F
100
AcDbEntity
  8
0
  6
Continuous
 62
     7
370
    25
100
AcDbLine
 10
263.0202146984
 20
466.3225192027
 30
0.0
 11
158.0202146984
 21
466.3225192027
 31
0.0
  0
SPLINE
  5
A2
330
1F
100
AcDbEntity
  8
0
  6
Continuous
 62
     7
370
    25
100
AcDbSpline
210
0.0
220
0.0
230
1.0
 70
     8
 71
     3
 72
    32
 73
    28
 74
     0
 42
0.000000001
 43
0.00000001
 40
0.0
 40
0.0
 40
0.0
 40
0.0
 40
0.0460655802101886
 40
0.093611478087211
 40
0.1396457894947494
 40
0.186833975761572
 40
0.2367519191392793
 40
0.2877806204671888
 40
0.3161421276272325
 40
0.3447020647452258
 40
0.3739413705674747
 40
0.4034518605892261
 40
0.4448794219386654
 40
0.4874393644788819
 40
0.5289032682879428
 40
0.571664043638856
 40
0.6120694515434424
 40
0.653308589944694
 40
0.701610128357146
 40
0.7509097583320355
 40
0.7793215993967675
 40
0.8079333665712662
 40
0.837217848874789
 40
0.8667593858136572
 40
0.9124776855362466
 40
0.9594700471358096
 40
1.0
 40
1.0
 40
1.0
 40
1.0
 10
158.0202146984436
 20
466.3225192027416
 30
0.0
 10
157.9573984053937
 20
466.2251183805232
 30
0.0
 10
157.8297472173804
 20
466.0271867601426
 30
0.0
 10
156.8259805639559
 20
464.4508370002515
 30
0.0
 10
155.3142823871877
 20
462.0062985446425
 30
0.0
 10
153.3346746341365
 20
458.660957221058
 30
0.0
 10
150.9835012726923
 20
454.4088227462892
 30
0.0
 10
148.8109868373841
 20
450.0547329425083
 30
0.0
 10
147.0387408497312
 20
446.0436105454434
 30
0.0
 10
145.6880387555359
 20
442.6335975133723
 30
0.0
 10
144.4320303355099
 20
438.9749024110807
 30
0.0
 10
143.1832193436836
 20
434.5581389403207
 30
0.0
 10
142.1188169536497
 20
429.2843061823623
 30
0.0
 10
141.5547092547911
 20
423.2178271878757
 30
0.0
 10
141.6947905680397
 20
417.0273677412453
 30
0.0
 10
142.5097132454953
 20
411.0744381890166
 30
0.0
 10
143.8683890392224
 20
405.4181890011011
 30
0.0
 10
145.688732026528
 20
399.8883470296623
 30
0.0
 10
147.9190300863344
 20
394.4784171232843
 30
0.0
 10
150.0369514609251
 20
390.1045663568383
 30
0.0
 10
151.7734975589483
 20
386.8118724785568
 30
0.0
 10
153.1194768532449
 20
384.3886663499835
 30
0.0
 10
154.3812610659952
 20
382.2111141002399
 30
0.0
 10
155.7270803546647
 20
379.9670121824741
 30
0.0
 10
156.9792777073217
 20
377.9513631311886
 30
0.0
 10
157.8756515142825
 20
376.5468034894808
 30
0.0
 10
157.9525576271415
 20
376.4276531449037
 30
0.0
 10
157.9881714148737
 20
376.3724768406772
 30
0.0
  0
LINE
  5
A3
330
1F
100
AcDbEntity
  8
0
  6
Continuous
 62
     7
370
    25
100
AcDbLine
 10
18.0202146984
 20
611.3225192027
 30
0.0
 11
158.0202146984
 21
611.3225192027
 31
0.0
  0
LINE
  5
A4
330
1F
100
AcDbEntity
  8
0
  6
Continuous
 62
     7
370
    25
100
AcDbLine
 10
18.0202146984
 20
231.3225192027
 30
0.0
 11
158.0202146984
 21
231.3225192027
 31
0.0
  0
LINE
  5
A5
330
1F
100
AcDbEntity
  8
0
  6
Continuous
 62
     7
370
    25
100
AcDbLine
 10
263.0202146984
 20
466.3225192027
 30
0.0
 11
263.0202146984
 21
376.3225192027
 31
0.0
  0
LINE
  5
A6
330
1F
100
AcDbEntity
  8
0
  6
Continuous
 62
     7
370
    25
100
AcDbLine
 10
377.3197951982
 20
42.254454225
 30
0.0
 11
757.3197951982
 21
42.254454225
 31
0.0
  0
LINE
  5
A7
330
1F
100
AcDbEntity
  8
0
  6
Continuous
 62
     7
370
    25
100
AcDbLine
 10
757.3197951982
 20
182.254454225
 30
0.0
 11
377.3197951982
 21
182.254454225
 31
0.0
  0
LINE
  5
A8
330
1F
100
AcDbEntity
  8
0
  6
Continuous
 62
     7
370
    25
100
AcDbLine
 10
757.3197951982
 20
182.254454225
 30
0.0
 11
757.3197951982
 21
42.254454225
 31
0.0
  0
LINE
  5
A9
330
1F
100
AcDbEntity
  8
0
  6
Continuous
 62
     7
370
    25
100
AcDbLine
 10
377.3197951982
 20
182.254454225
 30
0.0
 11
377.3197951982
 21
42.254454225
 31
0.0
  0
LINE
  5
AA
330
1F
100
AcDbEntity
  8
0
  6
Continuous
 62
     7
370
    25
100
AcDbLine
 10
-49.0855599503
 20
182.254454225
 30
0.0
 11
-429.0855599503
 21
182.254454225
 31
0.0
  0
LINE
  5
AB
330
1F
100
AcDbEntity
  8
0
  6
Continuous
 62
     7
370
    25
100
AcDbLine
 10
-429.0855599503
 20
42.254454225
 30
0.0
 11
-49.0855599503
 21
42.254454225
 31
0.0
  0
CIRCLE
  5
AC
330
1F
100
AcDbEntity
  8
0
  6
Continuous
 62
     7
370
    25
100
AcDbCircle
 10
-239.0855599503
 20
112.254454225
 30
0.0
 40
36.80000000000001
  0
CIRCLE
  5
AD
330
1F
100
AcDbEntity
  8
0
  6
Continuous
 62
     7
370
    25
100
AcDbCircle
 10
-239.0855599503
 20
112.254454225
 30
0.0
 40
45.00000000000003
  0
LINE
  5
AE
330
1F
100
AcDbEntity
  8
0
  6
Continuous
 62
     7
370
    25
100
AcDbLine
 10
-429.0855599503
 20
112.254454225
 30
0.0
 11
-429.0855599503
 21
182.254454225
 31
0.0
  0
LINE
  5
AF
330
1F
100
AcDbEntity
  8
0
  6
Continuous
 62
     7
370
    25
100
AcDbLine
 10
-429.0855599503
 20
42.254454225
 30
0.0
 11
-429.0855599503
 21
112.254454225
 31
0.0
  0
LINE
  5
B0
330
1F
100
AcDbEntity
  8
0
  6
Continuous
 62
     7
370
    25
100
AcDbLine
 10
-49.0855599503
 20
112.254454225
 30
0.0
 11
-49.0855599503
 21
182.254454225
 31
0.0
  0
LINE
  5
B1
330
1F
100
AcDbEntity
  8
0
  6
Continuous
 62
     7
370
    25
100
AcDbLine
 10
-49.0855599503
 20
42.254454225
 30
0.0
 11
-49.0855599503
 21
112.254454225
 31
0.0
  0
INSERT
  5
BD
330
1F
100
AcDbEntity
  8
FORMAT
100
AcDbBlockReference
  2
SW_CENTERMARKSYMBOL_1
 10
-239.0855599503
 20
112.254454225
 30
0.0
  0
LINE
  5
BE
330
1F
100
AcDbEntity
  8
0
  6
Continuous
 62
     7
370
    25
100
AcDbLine
 10
693.8350101515
 20
-208.1932975443
 30
0.0
 11
639.4969125902
 21
-176.824581524
 31
0.0
  0
LINE
  5
BF
330
1F
100
AcDbEntity
  8
0
  6
Continuous
 62
     7
370
    25
100
AcDbLine
 10
549.489597933
 20
-124.8644647746
 30
0.0
 11
425.1344333006
 21
-53.0757562979
 31
0.0
  0
LINE
  5
C0
330
1F
100
AcDbEntity
  8
0
  6
Continuous
 62
     7
370
    25
100
AcDbLine
 10
355.1401220161
 20
-174.3225970312
 30
0.0
 11
623.840698867
 21
-329.4401382776
 31
0.0
  0
LINE
  5
C1
330
1F
100
AcDbEntity
  8
0
  6
Continuous
 62
     7
370
    25
100
AcDbLine
 10
591.0727754719
 20
-204.7792408508
 30
0.0
 11
670.7294242758
 21
-158.7944363104
 31
0.0
  0
LINE
  5
C2
330
1F
100
AcDbEntity
  8
0
  6
Continuous
 62
     7
370
    25
100
AcDbLine
 10
625.7330813071
 20
-80.8500386961
 30
0.0
 11
546.06605641
 21
-126.8408332277
 31
0.0
  0
SPLINE
  5
C3
330
1F
100
AcDbEntity
  8
0
  6
Continuous
 62
     7
370
    25
100
AcDbSpline
210
0.0
220
0.0
230
1.0
 70
     8
 71
     3
 72
    25
 73
    21
 74
     0
 42
0.000000001
 43
0.00000001
 40
0.0
 40
0.0
 40
0.0
 40
0.0
 40
0.0613537107041476
 40
0.1246790232304529
 40
0.1859910877192893
 40
0.2488399721935095
 40
0.315324558797381
 40
0.3832885389447199
 40
0.4210625927499961
 40
0.4591009309554585
 40
0.498044105065563
 40
0.5373484633146253
 40
0.592524900963177
 40
0.6492095316632165
 40
0.704434373016741
 40
0.7613864884225231
 40
0.8152015428764073
 40
0.870127024236112
 40
0.9344587574043702
 40
0.9999999999999999
 40
0.9999999999999999
 40
0.9999999999999999
 40
0.9999999999999999
 10
542.1652356134688
 20
-144.3144808579415
 30
0.0
 10
542.1896905685727
 20
-146.2103999209778
 30
0.0
 10
542.2393863388938
 20
-150.0631634162979
 30
0.0
 10
542.6442637361973
 20
-156.4905496439735
 30
0.0
 10
543.3038814233981
 20
-163.1941159384338
 30
0.0
 10
544.2696008913757
 20
-170.108078072879
 30
0.0
 10
545.6137833895349
 20
-177.16962355211
 30
0.0
 10
547.1563901126209
 20
-183.113172922213
 30
0.0
 10
548.739514834356
 20
-187.8337122414061
 30
0.0
 10
550.1956674651751
 20
-191.4362093990934
 30
0.0
 10
551.8946238887766
 20
-194.8795611536572
 30
0.0
 10
554.1347029473417
 20
-198.5373201611374
 30
0.0
 10
557.1112283073284
 20
-202.2028918034445
 30
0.0
 10
561.001957705631
 20
-205.4573867210483
 30
0.0
 10
565.478453774328
 20
-207.7925908485913
 30
0.0
 10
570.26356861786
 20
-209.0876581064864
 30
0.0
 10
575.2255867800955
 20
-209.4348793591477
 30
0.0
 10
580.4161247615929
 20
-208.9000389617575
 30
0.0
 10
585.8451819990705
 20
-207.4627687410824
 30
0.0
 10
589.3191749421297
 20
-205.6787414514059
 30
0.0
 10
591.0723480939523
 20
-204.7784204669813
 30
0.0
  0
SPLINE
  5
C4
330
1F
100
AcDbEntity
  8
0
  6
Continuous
 62
     7
370
    25
100
AcDbSpline
210
0.0
220
0.0
230
1.0
 70
     8
 71
     3
 72
    16
 73
    12
 74
     0
 42
0.000000001
 43
0.00000001
 40
0.0
 40
0.0
 40
0.0
 40
0.0
 40
0.1107617632637313
 40
0.222834606126366
 40
0.3357215141536993
 40
0.447836625078205
 40
0.560926846821713
 40
0.6774008134767622
 40
0.7951851160988279
 40
0.8971053479515648
 40
1.0
 40
1.0
 40
1.0
 40
1.0
 10
546.1441264576231
 20
-126.9758892942976
 30
0.0
 10
545.8195756922987
 20
-127.122604448297
 30
0.0
 10
545.1666324759029
 20
-127.4177714137809
 30
0.0
 10
544.4536643856246
 20
-128.4763354385938
 30
0.0
 10
543.8142123001103
 20
-129.7767850252723
 30
0.0
 10
543.2917032762554
 20
-131.4346306151634
 30
0.0
 10
542.8646006231514
 20
-133.4446271891166
 30
0.0
 10
542.5340806745326
 20
-135.8405665714134
 30
0.0
 10
542.3152719648239
 20
-138.5028827745437
 30
0.0
 10
542.1878469418441
 20
-141.3287936785668
 30
0.0
 10
542.1727965906038
 20
-143.3161002179033
 30
0.0
 10
542.1652356134688
 20
-144.3144808579415
 30
0.0
  0
LWPOLYLINE
  5
C5
330
1F
100
AcDbEntity
  8
0
  6
Continuous
 62
     7
370
    25
100
AcDbPolyline
 90
       93
 70
   128
 43
0.0
 10
439.6347523414
 20
-85.1248927508
 10
439.5193623034
 20
-81.2909159088
 10
439.1737301912
 20
-77.6080413388
 10
438.599467501
 20
-74.093440302
 10
437.7992517107
 20
-70.7634994909
 10
436.7768137958
 20
-67.6337446267
 10
435.5369208336
 20
-64.7187680713
 10
434.0853537777
 20
-62.0321607911
 10
432.4288805036
 20
-59.5864489893
 10
430.5752242545
 20
-57.3930357034
 10
428.5330276314
 20
-55.4621476387
 10
426.3118122977
 20
-53.8027874866
 10
423.9219345847
 20
-52.4226919501
 10
421.3745372054
 20
-51.3282956718
 10
418.6814973025
 20
-50.5247012322
 10
415.855371071
 20
-50.0156553597
 10
412.909335216
 20
-49.803531461
 10
409.8571255167
 20
-49.8893185556
 10
406.7129727837
 20
-50.2726166646
 10
403.4915365083
 20
-50.9516386752
 10
400.2078365135
 20
-51.9232186734
 10
396.8771829247
 20
-53.1828267047
 10
393.5151047862
 20
-54.724589895
 10
390.1372776584
 20
-56.5413198326
 10
386.7594505305
 20
-58.6245460839
 10
383.397372392
 20
-60.9645556864
 10
380.0667188032
 20
-63.5504384353
 10
376.7830188084
 20
-66.3701377514
 10
373.5615825331
 20
-69.4105068948
 10
370.4174298
 20
-72.6573702613
 10
367.3652201007
 20
-76.0955894748
 10
364.4191842458
 20
-79.7091339704
 10
361.5930580143
 20
-83.4811557355
 10
358.9000181113
 20
-87.3940678633
 10
356.3526207321
 20
-91.4296265513
 10
353.962743019
 20
-95.569016162
 10
351.7415276854
 20
-99.7929369501
 10
349.6993310623
 20
-104.0816950472
 10
347.8456748131
 20
-108.4152942832
 10
346.189201539
 20
-112.773529418
 10
344.7376344831
 20
-117.1360803476
 10
343.4977415209
 20
-121.4826068457
 10
342.475303606
 20
-125.7928433992
 10
341.6750878157
 20
-130.0466936958
 10
341.1008251256
 20
-134.2243243217
 10
340.7551930133
 20
-138.3062572344
 10
340.6398029753
 20
-142.2734605784
 10
340.7551930133
 20
-146.1074374203
 10
341.1008251256
 20
-149.7903119904
 10
341.6750878157
 20
-153.3049130272
 10
342.475303606
 20
-156.6348538383
 10
343.4977415209
 20
-159.7646087025
 10
344.7376344831
 20
-162.6795852579
 10
346.189201539
 20
-165.3661925381
 10
347.8456748131
 20
-167.8119043399
 10
349.6993310623
 20
-170.0053176258
 10
351.7415276854
 20
-171.9362056905
 10
353.962743019
 20
-173.5955658426
 10
356.3526207321
 20
-174.9756613791
 10
358.9000181113
 20
-176.0700576574
 10
361.5930580143
 20
-176.8736520969
 10
364.4191842458
 20
-177.3826979695
 10
367.3652201007
 20
-177.5948218682
 10
370.4174298
 20
-177.5090347736
 10
373.5615825331
 20
-177.1257366646
 10
376.7830188084
 20
-176.4467146539
 10
380.0667188032
 20
-175.4751346558
 10
383.397372392
 20
-174.2155266245
 10
386.7594505305
 20
-172.6737634342
 10
390.1372776584
 20
-170.8570334966
 10
393.5151047862
 20
-168.7738072453
 10
396.8771829247
 20
-166.4337976427
 10
400.2078365136
 20
-163.8479148939
 10
403.4915365083
 20
-161.0282155778
 10
406.7129727837
 20
-157.9878464343
 10
409.8571255167
 20
-154.7409830679
 10
412.909335216
 20
-151.3027638543
 10
415.855371071
 20
-147.6892193588
 10
418.6814973025
 20
-143.9171975937
 10
421.3745372054
 20
-140.0042854659
 10
423.9219345847
 20
-135.9687267779
 10
426.3118122977
 20
-131.8293371672
 10
428.5330276314
 20
-127.6054163791
 10
430.5752242545
 20
-123.316658282
 10
432.4288805036
 20
-118.983059046
 10
434.0853537777
 20
-114.6248239111
 10
435.5369208336
 20
-110.2622729816
 10
436.7768137958
 20
-105.9157464835
 10
437.7992517107
 20
-101.6055099299
 10
438.599467501
 20
-97.3516596333
 10
439.1737301912
 20
-93.1740290075
 10
439.5193623034
 20
-89.0920960948
 10
439.6347523414
 20
-85.1248927508
  0
LWPOLYLINE
  5
C6
330
1F
100
AcDbEntity
  8
0
  6
Continuous
 62
     7
370
    25
100
AcDbPolyline
 90
       13
 70
   128
 43
0.0
 10
708.3353291923
 20
-240.2424339971
 10
708.2199391543
 20
-236.4084571552
 10
707.874307042
 20
-232.7255825851
 10
707.3000443519
 20
-229.2109815483
 10
706.4998285616
 20
-225.8810407372
 10
705.4773906467
 20
-222.751285873
 10
704.2374976845
 20
-219.8363093176
 10
702.7859306286
 20
-217.1497020374
 10
701.1294573545
 20
-214.7039902356
 10
699.2758011054
 20
-212.5105769497
 10
697.2336044823
 20
-210.579688885
 10
695.0123891486
 20
-208.9203287329
 10
693.8350101515
 20
-208.1932975443
  0
LWPOLYLINE
  5
C7
330
1F
100
AcDbEntity
  8
0
  6
Continuous
 62
     7
370
    25
100
AcDbPolyline
 90
       36
 70
   128
 43
0.0
 10
623.840698867
 20
-329.4401382776
 10
625.0531975829
 20
-330.0932026254
 10
627.6005949622
 20
-331.1875989037
 10
630.2936348652
 20
-331.9911933433
 10
633.1197610966
 20
-332.5002392158
 10
636.0657969516
 20
-332.7123631145
 10
639.1180066509
 20
-332.6265760199
 10
642.2621593839
 20
-332.2432779109
 10
645.4835956593
 20
-331.5642559003
 10
648.7672956541
 20
-330.5926759021
 10
652.0979492429
 20
-329.3330678708
 10
655.4600273814
 20
-327.7913046805
 10
658.8378545093
 20
-325.9745747429
 10
662.2156816371
 20
-323.8913484916
 10
665.5777597756
 20
-321.5513388891
 10
668.9084133644
 20
-318.9654561402
 10
672.1921133592
 20
-316.1457568241
 10
675.4135496346
 20
-313.1053876806
 10
678.5577023676
 20
-309.8585243142
 10
681.6099120669
 20
-306.4203051007
 10
684.5559479219
 20
-302.8067606051
 10
687.3820741533
 20
-299.03473884
 10
690.0751140563
 20
-295.1218267122
 10
692.6225114356
 20
-291.0862680242
 10
695.0123891486
 20
-286.9468784135
 10
697.2336044823
 20
-282.7229576254
 10
699.2758011054
 20
-278.4341995283
 10
701.1294573545
 20
-274.1006002923
 10
702.7859306286
 20
-269.7423651575
 10
704.2374976845
 20
-265.3798142279
 10
705.4773906467
 20
-261.0332877298
 10
706.4998285616
 20
-256.7230511763
 10
707.3000443519
 20
-252.4692008797
 10
707.874307042
 20
-248.2915702538
 10
708.2199391543
 20
-244.2096373411
 10
708.3353291923
 20
-240.2424339971
  0
LWPOLYLINE
  5
C8
330
1F
100
AcDbEntity
  8
0
  6
Continuous
 62
     7
370
    25
100
AcDbPolyline
 90
       84
 70
   128
 43
0.0
 10
430.6544962204
 20
-90.3090842609
 10
430.538456741
 20
-86.8375706579
 10
430.1910029666
 20
-83.5199179015
 10
429.6141250808
 20
-80.3751292063
 10
428.811127388
 20
-77.4212176372
 10
427.7866093862
 20
-74.675102932
 10
426.5464394218
 20
-72.1525145872
 10
425.097721076
 20
-69.8679017604
 10
423.4487524763
 20
-67.8343505068
 10
421.6089787654
 20
-66.063508824
 10
419.5889380007
 20
-64.5655199328
 10
417.4002007927
 20
-63.3489641778
 10
415.0553040299
 20
-62.4208098802
 10
412.5676790686
 20
-61.7863734239
 10
409.9515747993
 20
-61.4492888033
 10
407.2219760303
 20
-61.4114868087
 10
404.3945176563
 20
-61.6731839664
 10
401.4853951026
 20
-62.2328812989
 10
398.5112715599
 20
-63.0873729105
 10
395.4891825385
 20
-64.2317643506
 10
392.4364382906
 20
-65.6595006487
 10
389.3705246588
 20
-67.3624038606
 10
386.3090029188
 20
-69.3307199109
 10
383.2694091898
 20
-71.5531744635
 10
380.2691539894
 20
-74.0170375
 10
377.3254225077
 20
-76.708196236
 10
374.4550761721
 20
-79.6112359581
 10
371.6745560665
 20
-82.7095283175
 10
368.9997887582
 20
-85.9853265763
 10
366.446095072
 20
-89.4198672586
 10
364.0281023343
 20
-92.9934776265
 10
361.7596605884
 20
-96.6856883634
 10
359.6537632633
 20
-100.4753508206
 10
357.722472748
 20
-104.3407581546
 10
355.9768512998
 20
-108.2597696624
 10
354.4268976802
 20
-112.2099376009
 10
353.0814898832
 20
-116.1686357659
 10
351.9483342829
 20
-120.1131890928
 10
351.0339214918
 20
-124.0210035373
 10
350.3434891837
 20
-127.8696954923
 10
349.8809920923
 20
-131.6372199987
 10
349.649079359
 20
-135.3019970173
 10
349.649079359
 20
-138.8430350373
 10
349.8809920923
 20
-142.2400513135
 10
350.3434891837
 20
-145.4735880444
 10
351.0339214918
 20
-148.5251238244
 10
351.9483342829
 20
-151.3771797328
 10
353.0814898832
 20
-154.0134194518
 10
354.4268976802
 20
-156.4187428389
 10
355.9768512998
 20
-158.5793724196
 10
357.722472748
 20
-160.4829323034
 10
359.6537632633
 20
-162.1185190716
 10
361.7596605884
 20
-163.4767642312
 10
364.0281023343
 20
-164.5498878772
 10
366.446095072
 20
-165.3317432543
 10
368.9997887582
 20
-165.8178519657
 10
371.6745560665
 20
-166.0054296249
 10
374.4550761721
 20
-165.893401804
 10
377.3254225077
 20
-165.4824101881
 10
380.2691539894
 20
-164.7748089001
 10
383.2694091898
 20
-163.7746510159
 10
386.3090029188
 20
-162.4876653495
 10
389.3705246588
 20
-160.9212236382
 10
392.4364382906
 20
-159.0842983182
 10
395.4891825385
 20
-156.9874111314
 10
398.5112715599
 20
-154.6425728578
 10
401.4853951026
 20
-152.0632145185
 10
404.3945176563
 20
-149.2641104446
 10
407.2219760303
 20
-146.2612936508
 10
409.9515747993
 20
-143.0719639997
 10
412.5676790686
 20
-139.7143896827
 10
415.0553040299
 20
-136.2078025815
 10
417.4002007927
 20
-132.5722881094
 10
419.5889380008
 20
-128.828670164
 10
421.6089787654
 20
-124.99839185
 10
423.4487524763
 20
-121.1033926547
 10
425.097721076
 20
-117.1659827807
 10
426.5464394218
 20
-113.2087153552
 10
427.7866093862
 20
-109.2542572477
 10
428.811127388
 20
-105.3252592361
 10
429.6141250808
 20
-101.4442262652
 10
430.1910029666
 20
-97.6333885403
 10
430.538456741
 20
-93.914574195
 10
430.6544962204
 20
-90.3090842609
  0
LWPOLYLINE
  5
C9
330
1F
100
AcDbEntity
  8
0
  6
Continuous
 62
     7
370
    25
100
AcDbPolyline
 90
       68
 70
   128
 43
0.0
 10
674.2527823391
 20
-134.8441467608
 10
674.1384432705
 20
-131.9643350191
 10
673.7964308804
 20
-128.9778180878
 10
673.229750786
 20
-125.9108415852
 10
672.4433829924
 20
-122.7903582109
 10
671.444238128
 20
-119.6437908852
 10
670.2410967138
 20
-116.4987917547
 10
668.8445319999
 20
-113.382999185
 10
667.2668170471
 20
-110.3237948732
 10
665.5218168711
 20
-107.3480632167
 10
663.6248665963
 20
-104.4819550524
 10
661.59263669
 20
-101.7506578418
 10
659.4429864614
 20
-99.1781743231
 10
657.1948071143
 20
-96.7871115739
 10
654.8678557295
 20
-94.5984823396
 10
652.4825816394
 20
-92.6315203727
 10
650.0599467186
 20
-90.9035114055
 10
647.6212411698
 20
-89.4296412431
 10
645.187896425
 20
-88.2228623095
 10
642.7812968054
 20
-87.2937798212
 10
640.422591595
 20
-86.6505585887
 10
638.1325091799
 20
-86.2988512632
 10
635.9311748868
 20
-86.2417486613
 10
633.8379341206
 20
-86.4797526028
 10
631.8711823565
 20
-87.0107715005
 10
630.0482034795
 20
-87.8301387412
 10
628.3850178937
 20
-88.9306536961
 10
626.8962417337
 20
-90.3026450003
 10
625.5949584181
 20
-91.9340555448
 10
624.4926036713
 20
-93.8105484351
 10
623.5988650266
 20
-95.9156329842
 10
622.9215966912
 20
-98.2308096334
 10
622.4667505237
 20
-100.7357325271
 10
622.2383237285
 20
-103.4083883128
 10
622.2383237285
 20
-106.2252895954
 10
622.4667505237
 20
-109.161681345
 10
622.9215966912
 20
-112.1917584455
 10
623.5988650266
 20
-115.2888924703
 10
624.4926036713
 20
-118.4258656943
 10
625.5949584181
 20
-121.575110284
 10
626.8962417337
 20
-124.7089505646
 10
628.3850178937
 20
-127.7998462351
 10
630.0482034795
 20
-130.8206343932
 10
631.8711823565
 20
-133.744768244
 10
633.8379341206
 20
-136.5465503941
 10
635.9311748868
 20
-139.2013586811
 10
638.1325091799
 20
-141.6858625545
 10
640.422591595
 20
-143.9782281047
 10
642.7812968054
 20
-146.058309941
 10
645.187896425
 20
-147.9078282293
 10
647.6212411698
 20
-149.5105293365
 10
650.0599467186
 20
-150.8523286676
 10
652.4825816394
 20
-151.9214344418
 10
654.8678557295
 20
-152.7084513192
 10
657.1948071143
 20
-153.206462967
 10
659.4429864615
 20
-153.4110928411
 10
661.59263669
 20
-153.3205426468
 10
663.6248665963
 20
-152.9356081424
 10
665.5218168711
 20
-152.2596721462
 10
667.2668170471
 20
-151.2986748081
 10
668.8445319999
 20
-150.0610614071
 10
670.2410967138
 20
-148.5577081344
 10
671.444238128
 20
-146.8018265126
 10
672.4433829924
 20
-144.8088472924
 10
673.229750786
 20
-142.596284847
 10
673.7964308804
 20
-140.1835832547
 10
674.1384432705
 20
-137.5919454238
 10
674.2527823391
 20
-134.8441467608
  0
LWPOLYLINE
  5
CA
330
1F
100
AcDbEntity
  8
0
  6
Continuous
 62
     7
370
    25
100
AcDbPolyline
 90
       75
 70
   128
 43
0.0
 10
680.0510579448
 20
-138.1914200193
 10
679.9364267322
 20
-135.0091073997
 10
679.5933590148
 20
-131.7173730345
 10
679.0243266034
 20
-128.3399339453
 10
678.2334293896
 20
-124.901124658
 10
677.2263658058
 20
-121.4257218724
 10
676.0103917684
 20
-117.9387659451
 10
674.5942683981
 20
-114.4653804736
 10
672.9881988962
 20
-111.0305912798
 10
671.2037550304
 20
-107.6591460984
 10
669.2537937595
 20
-104.3753362693
 10
667.1523645992
 20
-101.2028217176
 10
664.9146083947
 20
-98.1644604833
 10
662.5566482309
 20
-95.2821440287
 10
660.0954732646
 20
-92.5766395099
 10
657.5488163179
 20
-90.067440149
 10
654.9350261126
 20
-87.7726247848
 10
652.2729350668
 20
-85.7087276148
 10
649.5817236076
 20
-83.8906190651
 10
646.8807819753
 20
-82.3313986497
 10
644.1895705161
 20
-81.0423005873
 10
641.5274794703
 20
-80.0326128591
 10
638.913689265
 20
-79.3096102881
 10
636.3670323183
 20
-78.8785021247
 10
633.905857352
 20
-78.7423945128
 10
631.5478971882
 20
-78.902268111
 10
629.3101409837
 20
-79.3569710264
 10
627.2087118234
 20
-80.103227114
 10
625.2587505525
 20
-81.1356595816
 10
623.4743066867
 20
-82.4468297296
 10
621.8682371848
 20
-84.0272905471
 10
620.4521138145
 20
-85.8656547777
 10
619.2361397771
 20
-87.9486769649
 10
618.2290761933
 20
-90.2613488862
 10
617.4381789795
 20
-92.7870076873
 10
616.8691465681
 20
-95.5074559388
 10
616.5260788507
 20
-98.4030927486
 10
616.4114476381
 20
-101.4530549872
 10
616.5260788507
 20
-104.6353676068
 10
616.8691465681
 20
-107.927101972
 10
617.4381789795
 20
-111.3045410612
 10
618.2290761933
 20
-114.7433503485
 10
619.2361397771
 20
-118.2187531341
 10
620.4521138145
 20
-121.7057090614
 10
621.8682371848
 20
-125.1790945329
 10
623.4743066867
 20
-128.6138837268
 10
625.2587505525
 20
-131.9853289081
 10
627.2087118234
 20
-135.2691387372
 10
629.3101409837
 20
-138.4416532889
 10
631.5478971882
 20
-141.4800145232
 10
633.905857352
 20
-144.3623309778
 10
636.3670323183
 20
-147.0678354966
 10
638.913689265
 20
-149.5770348575
 10
641.5274794703
 20
-151.8718502217
 10
644.1895705161
 20
-153.9357473918
 10
646.8807819753
 20
-155.7538559414
 10
649.5817236076
 20
-157.3130763568
 10
652.2729350668
 20
-158.6021744192
 10
654.9350261126
 20
-159.6118621475
 10
657.5488163179
 20
-160.3348647184
 10
660.0954732646
 20
-160.7659728819
 10
662.5566482309
 20
-160.9020804937
 10
664.9146083947
 20
-160.7422068955
 10
667.1523645992
 20
-160.2875039801
 10
669.2537937595
 20
-159.5412478925
 10
671.2037550304
 20
-158.5088154249
 10
672.9881988962
 20
-157.1976452769
 10
674.5942683981
 20
-155.6171844594
 10
676.0103917684
 20
-153.7788202288
 10
677.2263658058
 20
-151.6957980416
 10
678.2334293896
 20
-149.3831261203
 10
679.0243266034
 20
-146.8574673192
 10
679.5933590148
 20
-144.1370190677
 10
679.9364267322
 20
-141.2413822579
 10
680.0510579448
 20
-138.1914200193
  0
ENDSEC
  0
SECTION
  2
OBJECTS
  0
DICTIONARY
  5
C
330
0
100
AcDbDictionary
281
     1
  3
ACAD_GROUP
350
D
  3
ACAD_LAYOUT
350
1A
  3
ACAD_MLINESTYLE
350
17
  3
ACAD_PLOTSETTINGS
350
19
  3
ACAD_PLOTSTYLENAME
350
E
  3
ACAD_SCALELIST
350
47
  0
DICTIONARY
  5
D
102
{ACAD_REACTORS
330
C
102
}
330
C
100
AcDbDictionary
281
     1
  0
DICTIONARY
  5
1A
102
{ACAD_REACTORS
330
C
102
}
330
C
100
AcDbDictionary
281
     1
  3
Layout1
350
1E
  3
Layout2
350
26
  3
Model
350
22
  0
DICTIONARY
  5
17
102
{ACAD_REACTORS
330
C
102
}
330
C
100
AcDbDictionary
281
     1
  3
Standard
350
18
  0
DICTIONARY
  5
19
102
{ACAD_REACTORS
330
C
102
}
330
C
100
AcDbDictionary
281
     1
  0
ACDBDICTIONARYWDFLT
  5
E
102
{ACAD_REACTORS
330
C
102
}
330
C
100
AcDbDictionary
281
     1
  3
Normal
350
F
100
AcDbDictionaryWithDefault
340
F
  0
DICTIONARY
  5
47
102
{ACAD_REACTORS
330
C
102
}
330
C
100
AcDbDictionary
281
     1
  3
A0
350
48
  3
A1
350
49
  3
A2
350
4A
  3
A3
350
4B
  3
A4
350
4C
  3
A5
350
4D
  3
A6
350
4E
  3
A7
350
4F
  3
A8
350
50
  3
A9
350
51
  3
B0
350
52
  3
B1
350
53
  3
B2
350
54
  3
B3
350
55
  3
B4
350
56
  3
B5
350
57
  3
B6
350
58
  3
B7
350
59
  3
B8
350
5A
  3
B9
350
5B
  3
C0
350
5C
  3
C1
350
5D
  3
C2
350
5E
  3
C3
350
5F
  3
C4
350
60
  3
C5
350
61
  3
C6
350
62
  3
C7
350
63
  3
C8
350
64
  3
C9
350
65
  3
D0
350
66
  3
D1
350
67
  3
D2
350
68
  0
LAYOUT
  5
1E
102
{ACAD_REACTORS
330
1A
102
}
330
1A
100
AcDbPlotSettings
  1

  2
none_device
  4

  6

 40
0.0
 41
0.0
 42
0.0
 43
0.0
 44
0.0
 45
0.0
 46
0.0
 47
0.0
 48
0.0
 49
0.0
140
0.0
141
0.0
142
1.0
143
1.0
 70
   688
 72
     1
 73
     0
 74
     5
  7

 75
    16
147
1.0
148
0.0
149
0.0
100
AcDbLayout
  1
Layout1
 70
     1
 71
     1
 10
0.0
 20
0.0
 11
420.0
 21
297.0
 12
0.0
 22
0.0
 32
0.0
 14
1.0000000000E+20
 24
1.0000000000E+20
 34
1.0000000000E+20
 15
-1.0000000000E+20
 25
-1.0000000000E+20
 35
-1.0000000000E+20
146
0.0
 13
0.0
 23
0.0
 33
0.0
 16
1.0
 26
0.0
 36
0.0
 17
0.0
 27
1.0
 37
0.0
 76
     0
330
1B
  0
LAYOUT
  5
26
102
{ACAD_REACTORS
330
1A
102
}
330
1A
100
AcDbPlotSettings
  1

  2
none_device
  4

  6

 40
0.0
 41
0.0
 42
0.0
 43
0.0
 44
0.0
 45
0.0
 46
0.0
 47
0.0
 48
0.0
 49
0.0
140
0.0
141
0.0
142
1.0
143
1.0
 70
   688
 72
     1
 73
     0
 74
     5
  7

 75
    16
147
1.0
148
0.0
149
0.0
100
AcDbLayout
  1
Layout2
 70
     1
 71
     2
 10
0.0
 20
0.0
 11
0.0
 21
0.0
 12
0.0
 22
0.0
 32
0.0
 14
0.0
 24
0.0
 34
0.0
 15
0.0
 25
0.0
 35
0.0
146
0.0
 13
0.0
 23
0.0
 33
0.0
 16
1.0
 26
0.0
 36
0.0
 17
0.0
 27
1.0
 37
0.0
 76
     0
330
23
  0
LAYOUT
  5
22
102
{ACAD_REACTORS
330
1A
102
}
330
1A
100
AcDbPlotSettings
  1

  2
none_device
  4
Letter_(8.50_x_11.00_Inches)
  6

 40
6.35
 41
6.35
 42
6.35000508
 43
6.35000508
 44
215.9
 45
279.4
 46
0.0
 47
0.0
 48
0.0
 49
0.0
140
0.0
141
0.0
142
1.0
143
1.0
 70
  1712
 72
     1
 73
     0
 74
     0
  7

 75
     0
147
1.0
148
0.0
149
0.0
100
AcDbLayout
  1
Model
 70
     1
 71
     0
 10
0.0
 20
0.0
 11
279.4
 21
215.9
 12
0.0
 22
0.0
 32
0.0
 14
0.0
 24
0.0
 34
0.0
 15
279.4
 25
215.9
 35
0.0
146
0.0
 13
0.0
 23
0.0
 33
0.0
 16
1.0
 26
0.0
 36
0.0
 17
0.0
 27
1.0
 37
0.0
 76
     0
330
1F
331
29
  0
MLINESTYLE
  5
18
102
{ACAD_REACTORS
330
17
102
}
330
17
100
AcDbMlineStyle
  2
Standard
 70
     0
  3

 62
   256
 51
90.0
 52
90.0
 71
     2
 49
0.5
 62
   256
  6
BYLAYER
 49
-0.5
 62
   256
  6
BYLAYER
  0
ACDBPLACEHOLDER
  5
F
102
{ACAD_REACTORS
330
E
102
}
330
E
  0
SCALE
  5
48
102
{ACAD_REACTORS
330
47
102
}
330
47
100
AcDbScale
 70
     0
300
1:1
140
1.0
141
1.0
290
     1
  0
SCALE
  5
49
102
{ACAD_REACTORS
330
47
102
}
330
47
100
AcDbScale
 70
     0
300
1:2
140
1.0
141
2.0
290
     0
  0
SCALE
  5
4A
102
{ACAD_REACTORS
330
47
102
}
330
47
100
AcDbScale
 70
     0
300
1:4
140
1.0
141
4.0
290
     0
  0
SCALE
  5
4B
102
{ACAD_REACTORS
330
47
102
}
330
47
100
AcDbScale
 70
     0
300
1:5
140
1.0
141
5.0
290
     0
  0
SCALE
  5
4C
102
{ACAD_REACTORS
330
47
102
}
330
47
100
AcDbScale
 70
     0
300
1:8
140
1.0
141
8.0
290
     0
  0
SCALE
  5
4D
102
{ACAD_REACTORS
330
47
102
}
330
47
100
AcDbScale
 70
     0
300
1:10
140
1.0
141
10.0
290
     0
  0
SCALE
  5
4E
102
{ACAD_REACTORS
330
47
102
}
330
47
100
AcDbScale
 70
     0
300
1:16
140
1.0
141
16.0
290
     0
  0
SCALE
  5
4F
102
{ACAD_REACTORS
330
47
102
}
330
47
100
AcDbScale
 70
     0
300
1:20
140
1.0
141
20.0
290
     0
  0
SCALE
  5
50
102
{ACAD_REACTORS
330
47
102
}
330
47
100
AcDbScale
 70
     0
300
1:30
140
1.0
141
30.0
290
     0
  0
SCALE
  5
51
102
{ACAD_REACTORS
330
47
102
}
330
47
100
AcDbScale
 70
     0
300
1:40
140
1.0
141
40.0
290
     0
  0
SCALE
  5
52
102
{ACAD_REACTORS
330
47
102
}
330
47
100
AcDbScale
 70
     0
300
1:50
140
1.0
141
50.0
290
     0
  0
SCALE
  5
53
102
{ACAD_REACTORS
330
47
102
}
330
47
100
AcDbScale
 70
     0
300
1:100
140
1.0
141
100.0
290
     0
  0
SCALE
  5
54
102
{ACAD_REACTORS
330
47
102
}
330
47
100
AcDbScale
 70
     0
300
2:1
140
2.0
141
1.0
290
     0
  0
SCALE
  5
55
102
{ACAD_REACTORS
330
47
102
}
330
47
100
AcDbScale
 70
     0
300
4:1
140
4.0
141
1.0
290
     0
  0
SCALE
  5
56
102
{ACAD_REACTORS
330
47
102
}
330
47
100
AcDbScale
 70
     0
300
8:1
140
8.0
141
1.0
290
     0
  0
SCALE
  5
57
102
{ACAD_REACTORS
330
47
102
}
330
47
100
AcDbScale
 70
     0
300
10:1
140
10.0
141
1.0
290
     0
  0
SCALE
  5
58
102
{ACAD_REACTORS
330
47
102
}
330
47
100
AcDbScale
 70
     0
300
100:1
140
100.0
141
1.0
290
     0
  0
SCALE
  5
59
102
{ACAD_REACTORS
330
47
102
}
330
47
100
AcDbScale
 70
     0
300
1/128" = 1'-0"
140
0.0078125
141
12.0
290
     0
  0
SCALE
  5
5A
102
{ACAD_REACTORS
330
47
102
}
330
47
100
AcDbScale
 70
     0
300
1/64" = 1'-0"
140
0.015625
141
12.0
290
     0
  0
SCALE
  5
5B
102
{ACAD_REACTORS
330
47
102
}
330
47
100
AcDbScale
 70
     0
300
1/32" = 1'-0"
140
0.03125
141
12.0
290
     0
  0
SCALE
  5
5C
102
{ACAD_REACTORS
330
47
102
}
330
47
100
AcDbScale
 70
     0
300
1/16" = 1'-0"
140
0.0625
141
12.0
290
     0
  0
SCALE
  5
5D
102
{ACAD_REACTORS
330
47
102
}
330
47
100
AcDbScale
 70
     0
300
3/32" = 1'-0"
140
0.09375
141
12.0
290
     0
  0
SCALE
  5
5E
102
{ACAD_REACTORS
330
47
102
}
330
47
100
AcDbScale
 70
     0
300
1/8" = 1'-0"
140
0.125
141
12.0
290
     0
  0
SCALE
  5
5F
102
{ACAD_REACTORS
330
47
102
}
330
47
100
AcDbScale
 70
     0
300
3/16" = 1'-0"
140
0.1875
141
12.0
290
     0
  0
SCALE
  5
60
102
{ACAD_REACTORS
330
47
102
}
330
47
100
AcDbScale
 70
     0
300
1/4" = 1'-0"
140
0.25
141
12.0
290
     0
  0
SCALE
  5
61
102
{ACAD_REACTORS
330
47
102
}
330
47
100
AcDbScale
 70
     0
300
3/8" = 1'-0"
140
0.375
141
12.0
290
     0
  0
SCALE
  5
62
102
{ACAD_REACTORS
330
47
102
}
330
47
100
AcDbScale
 70
     0
300
1/2" = 1'-0"
140
0.5
141
12.0
290
     0
  0
SCALE
  5
63
102
{ACAD_REACTORS
330
47
102
}
330
47
100
AcDbScale
 70
     0
300
3/4" = 1'-0"
140
0.75
141
12.0
290
     0
  0
SCALE
  5
64
102
{ACAD_REACTORS
330
47
102
}
330
47
100
AcDbScale
 70
     0
300
1" = 1'-0"
140
1.0
141
12.0
290
     0
  0
SCALE
  5
65
102
{ACAD_REACTORS
330
47
102
}
330
47
100
AcDbScale
 70
     0
300
1-1/2" = 1'-0"
140
1.5
141
12.0
290
     0
  0
SCALE
  5
66
102
{ACAD_REACTORS
330
47
102
}
330
47
100
AcDbScale
 70
     0
300
3" = 1'-0"
140
3.0
141
12.0
290
     0
  0
SCALE
  5
67
102
{ACAD_REACTORS
330
47
102
}
330
47
100
AcDbScale
 70
     0
300
6" = 1'-0"
140
6.0
141
12.0
290
     0
  0
SCALE
  5
68
102
{ACAD_REACTORS
330
47
102
}
330
47
100
AcDbScale
 70
     0
300
1'-0" = 1'-0"
140
12.0
141
12.0
290
     0
  0
ENDSEC
  0
EOF
